  0
SECTION
  2
HEADER
  9
$ACADVER
  1
AC1015
  9
$ACADMAINTVER
 70
     6
  9
$DWGCODEPAGE
  3
ANSI_1254
  9
$INSBASE
 10
0.0
 20
0.0
 30
0.0
  9
$EXTMIN
 10
0.0
 20
0.0
 30
0.0
  9
$EXTMAX
 10
279.4
 20
215.9
 30
0.0
  9
$LIMMIN
 10
0.0
 20
0.0
  9
$LIMMAX
 10
279.4
 20
215.9
  9
$ORTHOMODE
 70
     0
  9
$REGENMODE
 70
     1
  9
$FILLMODE
 70
     1
  9
$QTEXTMODE
 70
     0
  9
$MIRRTEXT
 70
     1
  9
$LTSCALE
 40
1.0
  9
$ATTMODE
 70
     1
  9
$TEXTSIZE
 40
3.5
  9
$TRACEWID
 40
1.0
  9
$TEXTSTYLE
  7
Standard
  9
$CLAYER
  8
0
  9
$CELTYPE
  6
ByLayer
  9
$CECOLOR
 62
   256
  9
$CELTSCALE
 40
1.0
  9
$DISPSILH
 70
     0
  9
$DIMSCALE
 40
1.0
  9
$DIMASZ
 40
3.5
  9
$DIMEXO
 40
1.0
  9
$DIMDLI
 40
3.75
  9
$DIMRND
 40
0.0
  9
$DIMDLE
 40
0.0
  9
$DIMEXE
 40
1.0
  9
$DIMTP
 40
0.0
  9
$DIMTM
 40
0.0
  9
$DIMTXT
 40
3.5
  9
$DIMCEN
 40
2.5
  9
$DIMTSZ
 40
0.0
  9
$DIMTOL
 70
     0
  9
$DIMLIM
 70
     0
  9
$DIMTIH
 70
     1
  9
$DIMTOH
 70
     1
  9
$DIMSE1
 70
     0
  9
$DIMSE2
 70
     0
  9
$DIMTAD
 70
     1
  9
$DIMZIN
 70
     0
  9
$DIMBLK
  1

  9
$DIMASO
 70
     1
  9
$DIMSHO
 70
     1
  9
$DIMPOST
  1

  9
$DIMAPOST
  1

  9
$DIMALT
 70
     0
  9
$DIMALTD
 70
     3
  9
$DIMALTF
 40
0.0393700787
  9
$DIMLFAC
 40
1.0
  9
$DIMTOFL
 70
     1
  9
$DIMTVP
 40
0.0
  9
$DIMTIX
 70
     0
  9
$DIMSOXD
 70
     0
  9
$DIMSAH
 70
     0
  9
$DIMBLK1
  1

  9
$DIMBLK2
  1

  9
$DIMSTYLE
  2
ISO-25
  9
$DIMCLRD
 70
     0
  9
$DIMCLRE
 70
     0
  9
$DIMCLRT
 70
     0
  9
$DIMTFAC
 40
1.0
  9
$DIMGAP
 40
1.524
  9
$DIMJUST
 70
     0
  9
$DIMSD1
 70
     0
  9
$DIMSD2
 70
     0
  9
$DIMTOLJ
 70
     0
  9
$DIMTZIN
 70
     0
  9
$DIMALTZ
 70
     0
  9
$DIMALTTZ
 70
     0
  9
$DIMUPT
 70
     0
  9
$DIMDEC
 70
     2
  9
$DIMTDEC
 70
     2
  9
$DIMALTU
 70
     2
  9
$DIMALTTD
 70
     3
  9
$DIMTXSTY
  7
Standard
  9
$DIMAUNIT
 70
     0
  9
$DIMADEC
 70
     2
  9
$DIMALTRND
 40
0.0
  9
$DIMAZIN
 70
     0
  9
$DIMDSEP
 70
    44
  9
$DIMATFIT
 70
     3
  9
$DIMFRAC
 70
     0
  9
$DIMLDRBLK
  1

  9
$DIMLUNIT
 70
     2
  9
$DIMLWD
 70
    -2
  9
$DIMLWE
 70
    -2
  9
$DIMTMOVE
 70
     0
  9
$LUNITS
 70
     2
  9
$LUPREC
 70
     2
  9
$SKETCHINC
 40
1.0
  9
$FILLETRAD
 40
10.0
  9
$AUNITS
 70
     0
  9
$AUPREC
 70
     2
  9
$MENU
  1
.
  9
$ELEVATION
 40
0.0
  9
$PELEVATION
 40
0.0
  9
$THICKNESS
 40
0.0
  9
$LIMCHECK
 70
     0
  9
$CHAMFERA
 40
0.0
  9
$CHAMFERB
 40
0.0
  9
$CHAMFERC
 40
0.0
  9
$CHAMFERD
 40
0.0
  9
$SKPOLY
 70
     0
  9
$TDCREATE
 40
2458985.706011424
  9
$TDUCREATE
 40
2458985.581011424
  9
$TDUPDATE
 40
2458985.706011782
  9
$TDUUPDATE
 40
2458985.581011782
  9
$TDINDWG
 40
0.0000000116
  9
$TDUSRTIMER
 40
0.0000000116
  9
$USRTIMER
 70
     1
  9
$ANGBASE
 50
0.0
  9
$ANGDIR
 70
     0
  9
$PDMODE
 70
     0
  9
$PDSIZE
 40
-1.0
  9
$PLINEWID
 40
0.0
  9
$SPLFRAME
 70
     0
  9
$SPLINETYPE
 70
     6
  9
$SPLINESEGS
 70
     8
  9
$HANDSEED
  5
F1
  9
$SURFTAB1
 70
     6
  9
$SURFTAB2
 70
     6
  9
$SURFTYPE
 70
     6
  9
$SURFU
 70
     6
  9
$SURFV
 70
     6
  9
$UCSBASE
  2

  9
$UCSNAME
  2

  9
$UCSORG
 10
0.0
 20
0.0
 30
0.0
  9
$UCSXDIR
 10
1.0
 20
0.0
 30
0.0
  9
$UCSYDIR
 10
0.0
 20
1.0
 30
0.0
  9
$UCSORTHOREF
  2

  9
$UCSORTHOVIEW
 70
     0
  9
$UCSORGTOP
 10
0.0
 20
0.0
 30
0.0
  9
$UCSORGBOTTOM
 10
0.0
 20
0.0
 30
0.0
  9
$UCSORGLEFT
 10
0.0
 20
0.0
 30
0.0
  9
$UCSORGRIGHT
 10
0.0
 20
0.0
 30
0.0
  9
$UCSORGFRONT
 10
0.0
 20
0.0
 30
0.0
  9
$UCSORGBACK
 10
0.0
 20
0.0
 30
0.0
  9
$PUCSBASE
  2

  9
$PUCSNAME
  2

  9
$PUCSORG
 10
0.0
 20
0.0
 30
0.0
  9
$PUCSXDIR
 10
1.0
 20
0.0
 30
0.0
  9
$PUCSYDIR
 10
0.0
 20
1.0
 30
0.0
  9
$PUCSORTHOREF
  2

  9
$PUCSORTHOVIEW
 70
     0
  9
$PUCSORGTOP
 10
0.0
 20
0.0
 30
0.0
  9
$PUCSORGBOTTOM
 10
0.0
 20
0.0
 30
0.0
  9
$PUCSORGLEFT
 10
0.0
 20
0.0
 30
0.0
  9
$PUCSORGRIGHT
 10
0.0
 20
0.0
 30
0.0
  9
$PUCSORGFRONT
 10
0.0
 20
0.0
 30
0.0
  9
$PUCSORGBACK
 10
0.0
 20
0.0
 30
0.0
  9
$USERI1
 70
     0
  9
$USERI2
 70
     0
  9
$USERI3
 70
     0
  9
$USERI4
 70
     0
  9
$USERI5
 70
     0
  9
$USERR1
 40
0.0
  9
$USERR2
 40
0.0
  9
$USERR3
 40
0.0
  9
$USERR4
 40
0.0
  9
$USERR5
 40
0.0
  9
$WORLDVIEW
 70
     1
  9
$SHADEDGE
 70
     3
  9
$SHADEDIF
 70
    70
  9
$TILEMODE
 70
     1
  9
$MAXACTVP
 70
    64
  9
$PINSBASE
 10
0.0
 20
0.0
 30
0.0
  9
$PLIMCHECK
 70
     0
  9
$PEXTMIN
 10
1.0000000000E+20
 20
1.0000000000E+20
 30
1.0000000000E+20
  9
$PEXTMAX
 10
-1.0000000000E+20
 20
-1.0000000000E+20
 30
-1.0000000000E+20
  9
$PLIMMIN
 10
0.0
 20
0.0
  9
$PLIMMAX
 10
420.0
 20
297.0
  9
$UNITMODE
 70
     0
  9
$VISRETAIN
 70
     1
  9
$PLINEGEN
 70
     0
  9
$PSLTSCALE
 70
     1
  9
$TREEDEPTH
 70
  3020
  9
$CMLSTYLE
  2
Standard
  9
$CMLJUST
 70
     0
  9
$CMLSCALE
 40
20.0
  9
$PROXYGRAPHICS
 70
     1
  9
$MEASUREMENT
 70
     1
  9
$CELWEIGHT
370
    -1
  9
$ENDCAPS
280
     0
  9
$JOINSTYLE
280
     0
  9
$LWDISPLAY
290
     1
  9
$INSUNITS
 70
     4
  9
$HYPERLINKBASE
  1

  9
$STYLESHEET
  1

  9
$XEDIT
290
     1
  9
$CEPSNTYPE
380
     0
  9
$PSTYLEMODE
290
     1
  9
$FINGERPRINTGUID
  2
{b10dd687-9c0f-4154-81c7-18cd00d563f4}
  9
$VERSIONGUID
  2
{FAEB1C32-E019-11D5-929B-00C0DF256EC4}
  9
$EXTNAMES
290
     1
  9
$PSVPSCALE
 40
0.0
  9
$OLESTARTUP
290
     0
  0
ENDSEC
  0
SECTION
  2
CLASSES
  0
CLASS
  1
ACDBDICTIONARYWDFLT
  2
AcDbDictionaryWithDefault
  3
ObjectDBX Classes
 90
        0
280
     0
281
     0
  0
CLASS
  1
VISUALSTYLE
  2
AcDbVisualStyle
  3
ObjectDBX Classes
 90
     4095
280
     0
281
     0
  0
CLASS
  1
MATERIAL
  2
AcDbMaterial
  3
ObjectDBX Classes
 90
     1153
280
     0
281
     0
  0
CLASS
  1
SCALE
  2
AcDbScale
  3
ObjectDBX Classes
 90
     1153
280
     0
281
     0
  0
CLASS
  1
TABLESTYLE
  2
AcDbTableStyle
  3
ObjectDBX Classes
 90
     4095
280
     0
281
     0
  0
CLASS
  1
MLEADERSTYLE
  2
AcDbMLeaderStyle
  3
ACDB_MLEADERSTYLE_CLASS
 90
     4095
280
     0
281
     0
  0
CLASS
  1
SUN
  2
AcDbSun
  3
SCENEOE
 90
     1153
280
     0
281
     0
  0
CLASS
  1
ACDBPLACEHOLDER
  2
AcDbPlaceHolder
  3
ObjectDBX Classes
 90
        0
280
     0
281
     0
  0
CLASS
  1
LAYOUT
  2
AcDbLayout
  3
ObjectDBX Classes
 90
        0
280
     0
281
     0
  0
ENDSEC
  0
SECTION
  2
TABLES
  0
TABLE
  2
VPORT
  5
8
330
0
100
AcDbSymbolTable
 70
     1
  0
VPORT
  5
29
330
8
100
AcDbSymbolTableRecord
100
AcDbViewportTableRecord
  2
*Active
 70
     0
 10
0.0
 20
0.0
 11
1.0
 21
1.0
 12
139.7
 22
107.95
 13
0.0
 23
0.0
 14
10.0
 24
10.0
 15
10.0
 25
10.0
 16
0.0
 26
0.0
 36
1.0
 17
0.0
 27
0.0
 37
0.0
 40
215.9
 41
1.2941176471
 42
50.0
 43
0.0
 44
0.0
 50
0.0
 51
0.0
 71
     0
 72
  2000
 73
     1
 74
     3
 75
     0
 76
     0
 77
     0
 78
     0
281
     0
 65
     1
110
0.0
120
0.0
130
0.0
111
1.0
121
0.0
131
0.0
112
0.0
122
1.0
132
0.0
 79
     0
146
0.0
  0
ENDTAB
  0
TABLE
  2
LTYPE
  5
5
330
0
100
AcDbSymbolTable
 70
     6
  0
LTYPE
  5
14
330
5
100
AcDbSymbolTableRecord
100
AcDbLinetypeTableRecord
  2
ByBlock
 70
     0
  3

 72
    65
 73
     0
 40
0.0
  0
LTYPE
  5
15
330
5
100
AcDbSymbolTableRecord
100
AcDbLinetypeTableRecord
  2
ByLayer
 70
     0
  3

 72
    65
 73
     0
 40
0.0
  0
LTYPE
  5
16
330
5
100
AcDbSymbolTableRecord
100
AcDbLinetypeTableRecord
  2
Continuous
 70
     0
  3
Solid line
 72
    65
 73
     0
 40
0.0
  0
LTYPE
  5
6E
330
5
100
AcDbSymbolTableRecord
100
AcDbLinetypeTableRecord
  2
HIDDEN
 70
     0
  3
Hidden __ __ __ __ __ __ __ __ __ __ __ __ __ __
 72
    65
 73
     2
 40
1.905
 49
1.27
 74
     0
 49
-0.635
 74
     0
  0
LTYPE
  5
6F
330
5
100
AcDbSymbolTableRecord
100
AcDbLinetypeTableRecord
  2
PHANTOM
 70
     0
  3
Phantom ______  __  __  ______  __  __  ______
 72
    65
 73
     6
 40
12.7
 49
6.35
 74
     0
 49
-1.27
 74
     0
 49
1.27
 74
     0
 49
-1.27
 74
     0
 49
1.27
 74
     0
 49
-1.27
 74
     0
  0
LTYPE
  5
70
330
5
100
AcDbSymbolTableRecord
100
AcDbLinetypeTableRecord
  2
CENTER
 70
     0
  3
Center ____ _ ____ _ ____ _ ____ _ ____ _ ____
 72
    65
 73
     4
 40
10.16
 49
6.35
 74
     0
 49
-1.27
 74
     0
 49
1.27
 74
     0
 49
-1.27
 74
     0
  0
LTYPE
  5
71
330
5
100
AcDbSymbolTableRecord
100
AcDbLinetypeTableRecord
  2
CENTERX2
 70
     0
  3
Center (2x) ________  __  ________  __  _____
 72
    65
 73
     4
 40
20.32
 49
12.7
 74
     0
 49
-2.54
 74
     0
 49
2.54
 74
     0
 49
-2.54
 74
     0
  0
LTYPE
  5
72
330
5
100
AcDbSymbolTableRecord
100
AcDbLinetypeTableRecord
  2
DOT2
 70
     0
  3
Dot (.5x) ........................................
 72
    65
 73
     2
 40
0.635
 49
0.0
 74
     0
 49
-0.635
 74
     0
  0
ENDTAB
  0
TABLE
  2
LAYER
  5
2
330
0
100
AcDbSymbolTable
 70
    17
  0
LAYER
  5
10
330
2
100
AcDbSymbolTableRecord
100
AcDbLayerTableRecord
  2
0
 70
     0
 62
     7
  6
Continuous
370
    -3
390
F
  0
LAYER
  5
73
330
2
100
AcDbSymbolTableRecord
100
AcDbLayerTableRecord
  2
FORMAT
 70
     0
 62
     7
  6
Continuous
370
    -3
390
F
  0
LAYER
  5
74
330
2
100
AcDbSymbolTableRecord
100
AcDbLayerTableRecord
  2
YARDIMCI_GEOMETRI
 70
     0
 62
    -6
  6
Continuous
290
     0
370
    -3
390
F
  0
LAYER
  5
75
330
2
100
AcDbSymbolTableRecord
100
AcDbLayerTableRecord
  2
SAYFA_CERCEVESI
 70
     0
 62
     7
  6
Continuous
370
    25
390
F
  0
LAYER
  5
76
330
2
100
AcDbSymbolTableRecord
100
AcDbLayerTableRecord
  2
ANTET
 70
     0
 62
     7
  6
Continuous
370
    -3
390
F
  0
LAYER
  5
77
330
2
100
AcDbSymbolTableRecord
100
AcDbLayerTableRecord
  2
OLCU
 70
     0
 62
   150
  6
Continuous
370
    -3
390
F
  0
LAYER
  5
78
330
2
100
AcDbSymbolTableRecord
100
AcDbLayerTableRecord
  2
METIN
 70
     0
 62
    96
  6
Continuous
370
    -3
390
F
  0
LAYER
  5
79
330
2
100
AcDbSymbolTableRecord
100
AcDbLayerTableRecord
  2
BALON
 70
     0
 62
     5
  6
Continuous
370
    -3
390
F
  0
LAYER
  5
7A
330
2
100
AcDbSymbolTableRecord
100
AcDbLayerTableRecord
  2
VURGU
 70
     0
 62
     7
  6
Continuous
370
    -3
390
F
  0
LAYER
  5
7B
330
2
100
AcDbSymbolTableRecord
100
AcDbLayerTableRecord
  2
SILIK
 70
     0
 62
     7
  6
Continuous
370
    -3
390
F
  0
LAYER
  5
7C
330
2
100
AcDbSymbolTableRecord
100
AcDbLayerTableRecord
  2
MODEL
 70
     0
 62
     7
  6
Continuous
370
    -3
390
F
  0
LAYER
  5
7D
330
2
100
AcDbSymbolTableRecord
100
AcDbLayerTableRecord
  2
DETAYLANDıRMA
 70
     0
 62
   190
  6
Continuous
370
    -3
390
F
  0
LAYER
  5
7E
330
2
100
AcDbSymbolTableRecord
100
AcDbLayerTableRecord
  2
TOLERANS
 70
     0
 62
   230
  6
Continuous
370
    -3
390
F
  0
LAYER
  5
7F
330
2
100
AcDbSymbolTableRecord
100
AcDbLayerTableRecord
  2
MERKEZ_CIZGILERI
 70
     0
 62
    30
  6
Continuous
370
    -3
390
F
  0
LAYER
  5
80
330
2
100
AcDbSymbolTableRecord
100
AcDbLayerTableRecord
  2
KESIT-DETAY_CIZGILERI
 70
     0
 62
     7
  6
Continuous
370
    -3
390
F
  0
LAYER
  5
81
330
2
100
AcDbSymbolTableRecord
100
AcDbLayerTableRecord
  2
\U+041E\U+0421\U+0415\U+0412\U+042B\U+0415
 70
     0
 62
     7
  6
Continuous
370
    -3
390
F
  0
LAYER
  5
82
330
2
100
AcDbSymbolTableRecord
100
AcDbLayerTableRecord
  2
\U+0412\U+041E\U+0414\U+042F\U+041D\U+042B\U+0415_\U+0417\U+041D\U+0410\U+041A\U+0418
 70
     0
 62
    11
  6
Continuous
370
    -3
390
F
  0
ENDTAB
  0
TABLE
  2
STYLE
  5
3
330
0
100
AcDbSymbolTable
 70
     1
  0
STYLE
  5
11
330
3
100
AcDbSymbolTableRecord
100
AcDbTextStyleTableRecord
  2
Standard
 70
     0
 40
0.0
 41
1.0
 50
0.0
 71
     0
 42
3.5
  3
txt
  4

  0
ENDTAB
  0
TABLE
  2
VIEW
  5
6
330
0
100
AcDbSymbolTable
 70
     0
  0
ENDTAB
  0
TABLE
  2
UCS
  5
7
330
0
100
AcDbSymbolTable
 70
     0
  0
ENDTAB
  0
TABLE
  2
APPID
  5
9
330
0
100
AcDbSymbolTable
 70
     1
  0
APPID
  5
12
330
9
100
AcDbSymbolTableRecord
100
AcDbRegAppTableRecord
  2
ACAD
 70
     0
  0
ENDTAB
  0
TABLE
  2
DIMSTYLE
  5
A
330
0
100
AcDbSymbolTable
 70
     1
100
AcDbDimStyleTable
  0
DIMSTYLE
105
27
330
A
100
AcDbSymbolTableRecord
100
AcDbDimStyleTableRecord
  2
ISO-25
 70
     0
 41
2.5
 42
0.625
 43
3.75
 44
1.25
 73
     0
 74
     0
 77
     1
 78
     8
140
2.5
141
2.5
143
0.0393700787
147
0.625
171
     3
172
     1
178
     0
271
     2
272
     2
274
     3
278
    44
283
     0
284
     8
340
11
  0
ENDTAB
  0
TABLE
  2
BLOCK_RECORD
  5
1
330
0
100
AcDbSymbolTable
 70
     2
  0
BLOCK_RECORD
  5
1F
330
1
100
AcDbSymbolTableRecord
100
AcDbBlockTableRecord
  2
*Model_Space
340
22
  0
BLOCK_RECORD
  5
1B
330
1
100
AcDbSymbolTableRecord
100
AcDbBlockTableRecord
  2
*Paper_Space
340
1E
  0
BLOCK_RECORD
  5
23
330
1
100
AcDbSymbolTableRecord
100
AcDbBlockTableRecord
  2
*Paper_Space0
340
26
  0
BLOCK_RECORD
  5
88
330
1
100
AcDbSymbolTableRecord
100
AcDbBlockTableRecord
  2
SW_CENTERMARKSYMBOL_0
340
0
102
{BLKREFS
331
93
102
}
  0
ENDTAB
  0
ENDSEC
  0
SECTION
  2
BLOCKS
  0
BLOCK
  5
20
330
1F
100
AcDbEntity
  8
0
100
AcDbBlockBegin
  2
*Model_Space
 70
     0
 10
0.0
 20
0.0
 30
0.0
  3
*Model_Space
  1

  0
ENDBLK
  5
21
330
1F
100
AcDbEntity
  8
0
100
AcDbBlockEnd
  0
BLOCK
  5
1C
330
1B
100
AcDbEntity
 67
     1
  8
0
100
AcDbBlockBegin
  2
*Paper_Space
 70
     0
 10
0.0
 20
0.0
 30
0.0
  3
*Paper_Space
  1

  0
ENDBLK
  5
1D
330
1B
100
AcDbEntity
 67
     1
  8
0
100
AcDbBlockEnd
  0
BLOCK
  5
24
330
23
100
AcDbEntity
  8
0
100
AcDbBlockBegin
  2
*Paper_Space0
 70
     0
 10
0.0
 20
0.0
 30
0.0
  3
*Paper_Space0
  1

  0
ENDBLK
  5
25
330
23
100
AcDbEntity
  8
0
100
AcDbBlockEnd
  0
BLOCK
  5
89
330
88
100
AcDbEntity
  8
0
100
AcDbBlockBegin
  2
SW_CENTERMARKSYMBOL_0
 70
     0
 10
0.0
 20
0.0
 30
0.0
  3
SW_CENTERMARKSYMBOL_0
  1

  0
LINE
  5
8B
330
88
100
AcDbEntity
  8
FORMAT
 62
     0
100
AcDbLine
 10
0.0
 20
0.0
 30
0.0
 11
0.0
 21
2.5
 31
0.0
  0
LINE
  5
8C
330
88
100
AcDbEntity
  8
FORMAT
 62
     0
100
AcDbLine
 10
0.0
 20
0.0
 30
0.0
 11
-2.5
 21
0.0
 31
0.0
  0
LINE
  5
8D
330
88
100
AcDbEntity
  8
FORMAT
 62
     0
100
AcDbLine
 10
0.0
 20
0.0
 30
0.0
 11
0.0
 21
-2.5
 31
0.0
  0
LINE
  5
8E
330
88
100
AcDbEntity
  8
FORMAT
 62
     0
100
AcDbLine
 10
0.0
 20
0.0
 30
0.0
 11
2.5
 21
0.0
 31
0.0
  0
LINE
  5
8F
330
88
100
AcDbEntity
  8
FORMAT
 62
     0
100
AcDbLine
 10
0.0
 20
5.0
 30
0.0
 11
0.0
 21
115.0
 31
0.0
  0
LINE
  5
90
330
88
100
AcDbEntity
  8
FORMAT
 62
     0
100
AcDbLine
 10
-5.0
 20
0.0
 30
0.0
 11
-115.0
 21
0.0
 31
0.0
  0
LINE
  5
91
330
88
100
AcDbEntity
  8
FORMAT
 62
     0
100
AcDbLine
 10
0.0
 20
-5.0
 30
0.0
 11
0.0
 21
-115.0
 31
0.0
  0
LINE
  5
92
330
88
100
AcDbEntity
  8
FORMAT
 62
     0
100
AcDbLine
 10
5.0
 20
0.0
 30
0.0
 11
115.0
 21
0.0
 31
0.0
  0
ENDBLK
  5
8A
330
88
100
AcDbEntity
  8
0
100
AcDbBlockEnd
  0
ENDSEC
  0
SECTION
  2
ENTITIES
  0
CIRCLE
  5
83
330
1F
100
AcDbEntity
  8
0
  6
Continuous
 62
     7
370
    25
100
AcDbCircle
 10
130.6810329512
 20
112.0420513222
 30
0.0
 40
112.5
  0
CIRCLE
  5
84
330
1F
100
AcDbEntity
  8
0
  6
Continuous
 62
     7
370
    25
100
AcDbCircle
 10
130.6810329512
 20
112.0420513222
 30
0.0
 40
99.10000000000002
  0
CIRCLE
  5
85
330
1F
100
AcDbEntity
  8
0
  6
Continuous
 62
     7
370
    25
100
AcDbCircle
 10
130.6810329512
 20
112.0420513222
 30
0.0
 40
98.35278690283141
  0
CIRCLE
  5
86
330
1F
100
AcDbEntity
  8
0
  6
Continuous
 62
     7
370
    25
100
AcDbCircle
 10
130.6810329512
 20
112.0420513222
 30
0.0
 40
49.14721309716865
  0
CIRCLE
  5
87
330
1F
100
AcDbEntity
  8
0
  6
Continuous
 62
     7
370
    25
100
AcDbCircle
 10
130.6810329512
 20
112.0420513222
 30
0.0
 40
48.40000000000003
  0
INSERT
  5
93
330
1F
100
AcDbEntity
  8
FORMAT
 62
     7
100
AcDbBlockReference
  2
SW_CENTERMARKSYMBOL_0
 10
130.6810329512
 20
112.0420513222
 30
0.0
  0
LINE
  5
94
330
1F
100
AcDbEntity
  8
0
  6
Continuous
 62
     7
370
    25
100
AcDbLine
 10
-221.0478163677
 20
224.542048342
 30
0.0
 11
-340.4794610458
 21
224.542048342
 31
0.0
  0
LINE
  5
95
330
1F
100
AcDbEntity
  8
0
  6
Continuous
 62
     7
370
    25
100
AcDbLine
 10
-340.4794610458
 20
-0.4579456975
 30
0.0
 11
-221.0478163677
 21
-0.4579456975
 31
0.0
  0
ARC
  5
96
330
1F
100
AcDbEntity
  8
0
  6
Continuous
 62
     7
370
    25
100
AcDbCircle
 10
-221.0478180099
 20
222.5420513222
 30
0.0
 40
2.00000000000004
100
AcDbArc
 50
58.272345007
 51
90.0
  0
ARC
  5
97
330
1F
100
AcDbEntity
  8
0
  6
Continuous
 62
     7
370
    25
100
AcDbCircle
 10
-221.0478180099
 20
1.5420513222
 30
0.0
 40
2.000000000000008
100
AcDbArc
 50
270.0
 51
301.727654993
  0
LINE
  5
98
330
1F
100
AcDbEntity
  8
0
  6
Continuous
 62
     7
370
    25
100
AcDbLine
 10
-219.9960551577
 20
-0.1590656569
 30
0.0
 11
-127.9628812688
 21
56.7431678543
 31
0.0
  0
LINE
  5
99
330
1F
100
AcDbEntity
  8
0
  6
Continuous
 62
     7
370
    25
100
AcDbLine
 10
-127.9628812688
 20
167.3409347901
 30
0.0
 11
-219.9960551577
 21
224.2431683013
 31
0.0
  0
ARC
  5
9A
330
1F
100
AcDbEntity
  8
0
  6
Continuous
 62
     7
370
    25
100
AcDbCircle
 10
-126.9111177769
 20
169.0420513222
 30
0.0
 40
1.999999999999984
100
AcDbArc
 50
238.272345007
 51
270.0
  0
ARC
  5
9B
330
1F
100
AcDbEntity
  8
0
  6
Continuous
 62
     7
370
    25
100
AcDbCircle
 10
-126.9111177769
 20
55.0420513222
 30
0.0
 40
2.0
100
AcDbArc
 50
90.0
 51
121.727654993
  0
LINE
  5
9C
330
1F
100
AcDbEntity
  8
0
  6
Continuous
 62
     7
370
    25
100
AcDbLine
 10
-45.4794741588
 20
167.0420510242
 30
0.0
 11
-126.9111163336
 21
167.0420510242
 31
0.0
  0
LINE
  5
9D
330
1F
100
AcDbEntity
  8
0
  6
Continuous
 62
     7
370
    25
100
AcDbLine
 10
-126.9111163336
 20
57.0420516202
 30
0.0
 11
-45.4794741588
 21
57.0420516202
 31
0.0
  0
LINE
  5
9E
330
1F
100
AcDbEntity
  8
0
  6
Continuous
 62
     7
370
    25
100
AcDbLine
 10
-340.4794610458
 20
224.542048342
 30
0.0
 11
-340.4794610458
 21
-0.4579456975
 31
0.0
  0
LINE
  5
9F
330
1F
100
AcDbEntity
  8
0
  6
Continuous
 62
     7
370
    25
100
AcDbLine
 10
-45.4794741588
 20
167.0420510242
 30
0.0
 11
-45.4794741588
 21
57.0420516202
 31
0.0
  0
LINE
  5
A0
330
1F
100
AcDbEntity
  8
0
  6
Continuous
 62
     1
370
    25
100
AcDbLine
 10
-221.0478163677
 20
224.542048342
 30
0.0
 11
-221.0478163677
 21
-0.4579456975
 31
0.0
  0
LINE
  5
A1
330
1F
100
AcDbEntity
  8
0
  6
Continuous
 62
     1
370
    25
100
AcDbLine
 10
-219.9960551577
 20
224.2431683013
 30
0.0
 11
-219.9960551577
 21
-0.1590656569
 31
0.0
  0
LINE
  5
A2
330
1F
100
AcDbEntity
  8
0
  6
Continuous
 62
     1
370
    25
100
AcDbLine
 10
-127.9628812688
 20
167.3409347901
 30
0.0
 11
-127.9628812688
 21
56.7431678543
 31
0.0
  0
LINE
  5
A3
330
1F
100
AcDbEntity
  8
0
  6
Continuous
 62
     1
370
    25
100
AcDbLine
 10
-126.9111163336
 20
167.0420510242
 30
0.0
 11
-126.9111163336
 21
57.0420516202
 31
0.0
  0
LINE
  5
A4
330
1F
100
AcDbEntity
  8
0
  6
Continuous
 62
     7
370
    25
100
AcDbLine
 10
243.1810299709
 20
439.3327025309
 30
0.0
 11
243.1810299709
 21
558.764347209
 31
0.0
  0
LINE
  5
A5
330
1F
100
AcDbEntity
  8
0
  6
Continuous
 62
     7
370
    25
100
AcDbLine
 10
18.1810359314
 20
558.764347209
 30
0.0
 11
18.1810359314
 21
439.3327025309
 31
0.0
  0
ARC
  5
A6
330
1F
100
AcDbEntity
  8
0
  6
Continuous
 62
     7
370
    25
100
AcDbCircle
 10
241.1810329512
 20
439.3327041731
 30
0.0
 40
2.000000000000031
100
AcDbArc
 50
328.272345007
 51
0.0
  0
ARC
  5
A7
330
1F
100
AcDbEntity
  8
0
  6
Continuous
 62
     7
370
    25
100
AcDbCircle
 10
20.1810329512
 20
439.3327041731
 30
0.0
 40
2.000000000000021
100
AcDbArc
 50
180.0
 51
211.727654993
  0
LINE
  5
A8
330
1F
100
AcDbEntity
  8
0
  6
Continuous
 62
     7
370
    25
100
AcDbLine
 10
18.479915972
 20
438.2809413209
 30
0.0
 11
75.3821494833
 21
346.247767432
 31
0.0
  0
LINE
  5
A9
330
1F
100
AcDbEntity
  8
0
  6
Continuous
 62
     7
370
    25
100
AcDbLine
 10
185.9799164191
 20
346.247767432
 30
0.0
 11
242.8821499303
 21
438.2809413209
 31
0.0
  0
ARC
  5
AA
330
1F
100
AcDbEntity
  8
0
  6
Continuous
 62
     7
370
    25
100
AcDbCircle
 10
187.6810329512
 20
345.1960039401
 30
0.0
 40
1.999999999999972
100
AcDbArc
 50
148.272345007
 51
180.0
  0
ARC
  5
AB
330
1F
100
AcDbEntity
  8
0
  6
Continuous
 62
     7
370
    25
100
AcDbCircle
 10
73.6810329512
 20
345.1960039401
 30
0.0
 40
2.0
100
AcDbArc
 50
0.0
 51
31.727654993
  0
LINE
  5
AC
330
1F
100
AcDbEntity
  8
0
  6
Continuous
 62
     7
370
    25
100
AcDbLine
 10
185.6810326531
 20
263.764360322
 30
0.0
 11
185.6810326531
 21
345.1960024967
 31
0.0
  0
LINE
  5
AD
330
1F
100
AcDbEntity
  8
0
  6
Continuous
 62
     7
370
    25
100
AcDbLine
 10
75.6810332492
 20
345.1960024967
 30
0.0
 11
75.6810332492
 21
263.764360322
 31
0.0
  0
LINE
  5
AE
330
1F
100
AcDbEntity
  8
0
  6
Continuous
 62
     7
370
    25
100
AcDbLine
 10
243.1810299709
 20
558.764347209
 30
0.0
 11
18.1810359314
 21
558.764347209
 31
0.0
  0
LINE
  5
AF
330
1F
100
AcDbEntity
  8
0
  6
Continuous
 62
     7
370
    25
100
AcDbLine
 10
185.6810326531
 20
263.764360322
 30
0.0
 11
75.6810332492
 21
263.764360322
 31
0.0
  0
LINE
  5
B0
330
1F
100
AcDbEntity
  8
0
  6
Continuous
 62
     1
370
    25
100
AcDbLine
 10
243.1810299709
 20
439.3327025309
 30
0.0
 11
18.1810359314
 21
439.3327025309
 31
0.0
  0
LINE
  5
B1
330
1F
100
AcDbEntity
  8
0
  6
Continuous
 62
     1
370
    25
100
AcDbLine
 10
242.8821499303
 20
438.2809413209
 30
0.0
 11
18.479915972
 21
438.2809413209
 31
0.0
  0
LINE
  5
B2
330
1F
100
AcDbEntity
  8
0
  6
Continuous
 62
     1
370
    25
100
AcDbLine
 10
185.9799164191
 20
346.247767432
 30
0.0
 11
75.3821494833
 21
346.247767432
 31
0.0
  0
LINE
  5
B3
330
1F
100
AcDbEntity
  8
0
  6
Continuous
 62
     1
370
    25
100
AcDbLine
 10
185.6810326531
 20
345.1960024967
 30
0.0
 11
75.6810332492
 21
345.1960024967
 31
0.0
  0
LINE
  5
B4
330
1F
100
AcDbEntity
  8
0
  6
Continuous
 62
     7
370
    25
100
AcDbLine
 10
475.0631596766
 20
-0.4579456975
 30
0.0
 11
594.4948043547
 21
-0.4579456975
 31
0.0
  0
LINE
  5
B5
330
1F
100
AcDbEntity
  8
0
  6
Continuous
 62
     7
370
    25
100
AcDbLine
 10
594.4948043547
 20
224.542048342
 30
0.0
 11
475.0631596766
 21
224.542048342
 31
0.0
  0
ARC
  5
B6
330
1F
100
AcDbEntity
  8
0
  6
Continuous
 62
     7
370
    25
100
AcDbCircle
 10
475.0631613188
 20
1.5420513222
 30
0.0
 40
2.000000000000002
100
AcDbArc
 50
238.272345007
 51
270.0
  0
ARC
  5
B7
330
1F
100
AcDbEntity
  8
0
  6
Continuous
 62
     7
370
    25
100
AcDbCircle
 10
475.0631613188
 20
222.5420513222
 30
0.0
 40
2.000000000000028
100
AcDbArc
 50
90.0
 51
121.727654993
  0
LINE
  5
B8
330
1F
100
AcDbEntity
  8
0
  6
Continuous
 62
     7
370
    25
100
AcDbLine
 10
474.0113984666
 20
224.2431683013
 30
0.0
 11
381.9782245777
 21
167.3409347901
 31
0.0
  0
LINE
  5
B9
330
1F
100
AcDbEntity
  8
0
  6
Continuous
 62
     7
370
    25
100
AcDbLine
 10
381.9782245777
 20
56.7431678543
 30
0.0
 11
474.0113984666
 21
-0.1590656569
 31
0.0
  0
ARC
  5
BA
330
1F
100
AcDbEntity
  8
0
  6
Continuous
 62
     7
370
    25
100
AcDbCircle
 10
380.9264610858
 20
55.0420513222
 30
0.0
 40
2.000000000000012
100
AcDbArc
 50
58.272345007
 51
90.0
  0
ARC
  5
BB
330
1F
100
AcDbEntity
  8
0
  6
Continuous
 62
     7
370
    25
100
AcDbCircle
 10
380.9264610858
 20
169.0420513222
 30
0.0
 40
2.000000000000006
100
AcDbArc
 50
270.0
 51
301.727654993
  0
LINE
  5
BC
330
1F
100
AcDbEntity
  8
0
  6
Continuous
 62
     7
370
    25
100
AcDbLine
 10
299.4948174677
 20
57.0420516202
 30
0.0
 11
380.9264596424
 21
57.0420516202
 31
0.0
  0
LINE
  5
BD
330
1F
100
AcDbEntity
  8
0
  6
Continuous
 62
     7
370
    25
100
AcDbLine
 10
380.9264596424
 20
167.0420510242
 30
0.0
 11
299.4948174677
 21
167.0420510242
 31
0.0
  0
LINE
  5
BE
330
1F
100
AcDbEntity
  8
0
  6
Continuous
 62
     7
370
    25
100
AcDbLine
 10
594.4948043547
 20
112.0420513222
 30
0.0
 11
594.4948043547
 21
224.542048342
 31
0.0
  0
LINE
  5
BF
330
1F
100
AcDbEntity
  8
0
  6
Continuous
 62
     7
370
    25
100
AcDbLine
 10
594.4948043547
 20
-0.4579456975
 30
0.0
 11
594.4948043547
 21
112.0420513222
 31
0.0
  0
LINE
  5
C0
330
1F
100
AcDbEntity
  8
0
  6
Continuous
 62
     7
370
    25
100
AcDbLine
 10
299.4948174677
 20
112.0420513222
 30
0.0
 11
299.4948174677
 21
167.0420510242
 31
0.0
  0
LINE
  5
C1
330
1F
100
AcDbEntity
  8
0
  6
Continuous
 62
     7
370
    25
100
AcDbLine
 10
299.4948174677
 20
57.0420516202
 30
0.0
 11
299.4948174677
 21
112.0420513222
 31
0.0
  0
LINE
  5
C2
330
1F
100
AcDbEntity
  8
0
  6
Continuous
 62
     1
370
    25
100
AcDbLine
 10
475.0631596766
 20
112.0420513222
 30
0.0
 11
475.0631596766
 21
224.542048342
 31
0.0
  0
LINE
  5
C3
330
1F
100
AcDbEntity
  8
0
  6
Continuous
 62
     1
370
    25
100
AcDbLine
 10
475.0631596766
 20
-0.4579456975
 30
0.0
 11
475.0631596766
 21
112.0420513222
 31
0.0
  0
LINE
  5
C4
330
1F
100
AcDbEntity
  8
0
  6
Continuous
 62
     1
370
    25
100
AcDbLine
 10
474.0113984666
 20
112.0420513222
 30
0.0
 11
474.0113984666
 21
224.2431683013
 31
0.0
  0
LINE
  5
C5
330
1F
100
AcDbEntity
  8
0
  6
Continuous
 62
     1
370
    25
100
AcDbLine
 10
474.0113984666
 20
-0.1590656569
 30
0.0
 11
474.0113984666
 21
112.0420513222
 31
0.0
  0
LINE
  5
C6
330
1F
100
AcDbEntity
  8
0
  6
Continuous
 62
     1
370
    25
100
AcDbLine
 10
381.9782245777
 20
112.0420513222
 30
0.0
 11
381.9782245777
 21
167.3409347901
 31
0.0
  0
LINE
  5
C7
330
1F
100
AcDbEntity
  8
0
  6
Continuous
 62
     1
370
    25
100
AcDbLine
 10
381.9782245777
 20
56.7431678543
 30
0.0
 11
381.9782245777
 21
112.0420513222
 31
0.0
  0
LINE
  5
C8
330
1F
100
AcDbEntity
  8
0
  6
Continuous
 62
     1
370
    25
100
AcDbLine
 10
380.9264596424
 20
112.0420513222
 30
0.0
 11
380.9264596424
 21
167.0420510242
 31
0.0
  0
LINE
  5
C9
330
1F
100
AcDbEntity
  8
0
  6
Continuous
 62
     1
370
    25
100
AcDbLine
 10
380.9264596424
 20
57.0420516202
 30
0.0
 11
380.9264596424
 21
112.0420513222
 31
0.0
  0
LINE
  5
CA
330
1F
100
AcDbEntity
  8
0
  6
Continuous
 62
     7
370
    25
100
AcDbLine
 10
18.1810359314
 20
-227.8559138594
 30
0.0
 11
18.1810359314
 21
-347.2875585375
 31
0.0
  0
LINE
  5
CB
330
1F
100
AcDbEntity
  8
0
  6
Continuous
 62
     7
370
    25
100
AcDbLine
 10
243.1810299709
 20
-347.2875585375
 30
0.0
 11
243.1810299709
 21
-227.8559138594
 31
0.0
  0
ARC
  5
CC
330
1F
100
AcDbEntity
  8
0
  6
Continuous
 62
     7
370
    25
100
AcDbCircle
 10
20.1810329512
 20
-227.8559155016
 30
0.0
 40
2.000000000000021
100
AcDbArc
 50
148.272345007
 51
180.0
  0
ARC
  5
CD
330
1F
100
AcDbEntity
  8
0
  6
Continuous
 62
     7
370
    25
100
AcDbCircle
 10
241.1810329512
 20
-227.8559155016
 30
0.0
 40
2.000000000000031
100
AcDbArc
 50
0.0
 51
31.727654993
  0
LINE
  5
CE
330
1F
100
AcDbEntity
  8
0
  6
Continuous
 62
     7
370
    25
100
AcDbLine
 10
242.8821499303
 20
-226.8041526495
 30
0.0
 11
185.9799164191
 21
-134.7709787605
 31
0.0
  0
LINE
  5
CF
330
1F
100
AcDbEntity
  8
0
  6
Continuous
 62
     7
370
    25
100
AcDbLine
 10
75.3821494833
 20
-134.7709787605
 30
0.0
 11
18.479915972
 21
-226.8041526495
 31
0.0
  0
ARC
  5
D0
330
1F
100
AcDbEntity
  8
0
  6
Continuous
 62
     7
370
    25
100
AcDbCircle
 10
73.6810329512
 20
-133.7192152686
 30
0.0
 40
2.000000000000004
100
AcDbArc
 50
328.272345007
 51
0.0
  0
ARC
  5
D1
330
1F
100
AcDbEntity
  8
0
  6
Continuous
 62
     7
370
    25
100
AcDbCircle
 10
187.6810329512
 20
-133.7192152686
 30
0.0
 40
1.999999999999992
100
AcDbArc
 50
180.0
 51
211.727654993
  0
LINE
  5
D2
330
1F
100
AcDbEntity
  8
0
  6
Continuous
 62
     7
370
    25
100
AcDbLine
 10
75.6810332492
 20
-52.2875716506
 30
0.0
 11
75.6810332492
 21
-133.7192138253
 31
0.0
  0
LINE
  5
D3
330
1F
100
AcDbEntity
  8
0
  6
Continuous
 62
     7
370
    25
100
AcDbLine
 10
185.6810326531
 20
-133.7192138253
 30
0.0
 11
185.6810326531
 21
-52.2875716506
 31
0.0
  0
LINE
  5
D4
330
1F
100
AcDbEntity
  8
0
  6
Continuous
 62
     7
370
    25
100
AcDbLine
 10
18.1810359314
 20
-347.2875585375
 30
0.0
 11
243.1810299709
 21
-347.2875585375
 31
0.0
  0
LINE
  5
D5
330
1F
100
AcDbEntity
  8
0
  6
Continuous
 62
     7
370
    25
100
AcDbLine
 10
75.6810332492
 20
-52.2875716506
 30
0.0
 11
185.6810326531
 21
-52.2875716506
 31
0.0
  0
LINE
  5
D6
330
1F
100
AcDbEntity
  8
0
  6
Continuous
 62
     1
370
    25
100
AcDbLine
 10
18.1810359314
 20
-227.8559138594
 30
0.0
 11
243.1810299709
 21
-227.8559138594
 31
0.0
  0
LINE
  5
D7
330
1F
100
AcDbEntity
  8
0
  6
Continuous
 62
     1
370
    25
100
AcDbLine
 10
18.479915972
 20
-226.8041526495
 30
0.0
 11
242.8821499303
 21
-226.8041526495
 31
0.0
  0
LINE
  5
D8
330
1F
100
AcDbEntity
  8
0
  6
Continuous
 62
     1
370
    25
100
AcDbLine
 10
75.3821494833
 20
-134.7709787605
 30
0.0
 11
185.9799164191
 21
-134.7709787605
 31
0.0
  0
LINE
  5
D9
330
1F
100
AcDbEntity
  8
0
  6
Continuous
 62
     1
370
    25
100
AcDbLine
 10
75.6810332492
 20
-133.7192138253
 30
0.0
 11
185.6810326531
 21
-133.7192138253
 31
0.0
  0
LINE
  5
DA
330
1F
100
AcDbEntity
  8
0
  6
Continuous
 62
     7
370
    25
100
AcDbLine
 10
511.6092729913
 20
-97.3308370435
 30
0.0
 11
427.1583471512
 21
-48.5783552817
 31
0.0
  0
LINE
  5
DB
330
1F
100
AcDbEntity
  8
0
  6
Continuous
 62
     7
370
    25
100
AcDbLine
 10
314.6674917816
 20
-243.439354214
 30
0.0
 11
399.1184176218
 21
-292.1918359758
 31
0.0
  0
SPLINE
  5
DC
330
1F
100
AcDbEntity
  8
0
  6
Continuous
 62
     7
370
    25
100
AcDbSpline
210
0.0
220
0.0
230
1.0
 70
     8
 71
     3
 72
    12
 73
     8
 74
     0
 42
0.000000001
 43
0.00000001
 40
0.0
 40
0.0
 40
0.0
 40
0.0
 40
0.1151549806273258
 40
0.3528949112107098
 40
0.5900749526631904
 40
0.8266847017509182
 40
1.0
 40
1.0
 40
1.0
 40
1.0
 10
526.4945836787412
 20
-112.2998683947265
 30
0.0
 10
526.2066475149051
 20
-111.8093225595132
 30
0.0
 10
525.3242609570876
 20
-110.3060343124973
 30
0.0
 10
523.6627377493672
 20
-108.0003527108694
 30
0.0
 10
521.5209346155331
 20
-105.3925013276474
 30
0.0
 10
519.4340949020755
 20
-103.1958524870955
 30
0.0
 10
517.998718088599
 20
-101.9643174087819
 30
0.0
 10
517.3918443146159
 20
-101.4436274173096
 30
0.0
  0
SPLINE
  5
DD
330
1F
100
AcDbEntity
  8
0
  6
Continuous
 62
     7
370
    25
100
AcDbSpline
210
0.0
220
0.0
230
1.0
 70
     8
 71
     3
 72
    13
 73
     9
 74
     0
 42
0.000000001
 43
0.00000001
 40
0.0
 40
0.0
 40
0.0
 40
0.0
 40
0.060315553731777
 40
0.2682190856454365
 40
0.4764309943567313
 40
0.6850514158230755
 40
0.8941390623837374
 40
0.9999999999999999
 40
0.9999999999999999
 40
0.9999999999999999
 40
0.9999999999999999
 10
405.2595242828329
 20
-295.0285517965748
 30
0.0
 10
405.5514419059319
 20
-295.1438032078614
 30
0.0
 10
406.8495793366119
 20
-295.6563182432382
 30
0.0
 10
409.2717618338697
 20
-296.324271553253
 30
0.0
 10
412.518638765617
 20
-297.0279916491712
 30
0.0
 10
415.880425234276
 20
-297.4576063507653
 30
0.0
 10
418.7514251829083
 20
-297.6557443506422
 30
0.0
 10
420.5290879979297
 20
-297.6142408289936
 30
0.0
 10
421.1265983911118
 20
-297.6002906100155
 30
0.0
  0
LINE
  5
DE
330
1F
100
AcDbEntity
  8
0
  6
Continuous
 62
     7
370
    25
100
AcDbLine
 10
430.1880733564
 20
-296.7433844322
 30
0.0
 11
508.4102876767
 21
-282.8097529898
 31
0.0
  0
LINE
  5
DF
330
1F
100
AcDbEntity
  8
0
  6
Continuous
 62
     7
370
    25
100
AcDbLine
 10
558.1394121866
 20
-196.6670505749
 30
0.0
 11
531.0881766005
 21
-121.9603441114
 31
0.0
  0
LINE
  5
E0
330
1F
100
AcDbEntity
  8
0
  6
Continuous
 62
     7
370
    25
100
AcDbLine
 10
607.0071762851
 20
-218.7963568217
 30
0.0
 11
555.3553573272
 21
-188.9783964304
 31
0.0
  0
LINE
  5
E1
330
1F
100
AcDbEntity
  8
0
  6
Continuous
 62
     7
370
    25
100
AcDbLine
 10
500.3598260451
 20
-284.2437745648
 30
0.0
 11
552.0116450031
 21
-314.0617349561
 31
0.0
  0
LWPOLYLINE
  5
E2
330
1F
100
AcDbEntity
  8
0
  6
Continuous
 62
     7
370
    25
100
AcDbPolyline
 90
      123
 70
   128
 43
0.0
 10
291.3634086903
 20
-191.9318098214
 10
291.4688811786
 20
-187.1420400154
 10
291.7850299577
 20
-182.2431894087
 10
292.311006822
 20
-177.2482546127
 10
293.045426194
 20
-172.1704770574
 10
293.9863335136
 20
-167.023323597
 10
295.1312368484
 20
-161.8204458272
 10
296.4771016251
 20
-156.5756352185
 10
298.0203558986
 20
-151.3028033436
 10
299.756906156
 20
-146.0159362522
 10
301.6821531225
 20
-140.7290442808
 10
303.7909864929
 20
-135.4561590112
 10
306.0778112728
 20
-130.2112541845
 10
308.5365688529
 20
-125.0082487451
 10
311.1607422766
 20
-119.8609247107
 10
313.943361509
 20
-114.7829423829
 10
316.8770561199
 20
-109.7877673468
 10
319.9540447473
 20
-104.8886461358
 10
323.1661667078
 20
-100.0985636487
 10
326.5049030696
 20
-95.4302309836
 10
329.9614029945
 20
-90.8960215623
 10
333.5264995429
 20
-86.507955922
 10
337.1907360157
 20
-82.2776865087
 10
340.9444001985
 20
-78.2164109876
 10
344.7775322642
 20
-74.3349163506
 10
348.6799721881
 20
-70.6434846237
 10
352.6413716018
 20
-67.1519103584
 10
356.6512227692
 20
-63.8694474021
 10
360.6988928305
 20
-60.8048073803
 10
364.7736488274
 20
-57.9661087483
 10
368.8646855263
 20
-55.3608911471
 10
372.9611534064
 20
-52.996050577
 10
377.0521901054
 20
-50.8778577462
 10
381.1269461023
 20
-49.0119432446
 10
385.1746161636
 20
-47.4032428884
 10
389.184467331
 20
-46.0560302324
 10
393.1458667446
 20
-44.9738700894
 10
397.0483066685
 20
-44.1596405858
 10
400.8814387342
 20
-43.6154951421
 10
404.6351029171
 20
-43.3428822472
 10
408.2993393899
 20
-43.3425142806
 10
411.8644359383
 20
-43.6144070613
 10
415.3209358632
 20
-44.1578266157
 10
418.659672225
 20
-44.9713363297
 10
421.8717941855
 20
-46.0527817418
 10
424.9487828129
 20
-47.399287503
 10
427.8824774238
 20
-49.0072908394
 10
430.6650966562
 20
-50.8725293867
 10
433.2892700799
 20
-52.9900472772
 10
435.74802766
 20
-55.3542316407
 10
438.0348524399
 20
-57.9588247771
 10
440.1436858102
 20
-60.7969028636
 10
442.0689327768
 20
-63.860952002
 10
443.8054830342
 20
-67.1428408434
 10
445.3487373076
 20
-70.6338692609
 10
446.6946020844
 20
-74.3247774741
 10
447.8395054192
 20
-78.2057779905
 10
448.7804127387
 20
-82.2665829834
 10
449.5148321108
 20
-86.4964179806
 10
450.0408089751
 20
-90.8840728154
 10
450.3569577541
 20
-95.4179058114
 10
450.4624302425
 20
-100.0858996744
 10
450.3569577541
 20
-104.8756694804
 10
450.0408089751
 20
-109.7745200871
 10
449.5148321108
 20
-114.7694548831
 10
448.7804127387
 20
-119.8472324383
 10
447.8395054192
 20
-124.9943858988
 10
446.6946020844
 20
-130.1972636685
 10
445.3487373076
 20
-135.4420742773
 10
443.8054830342
 20
-140.7149061521
 10
442.0689327768
 20
-146.0017732436
 10
440.1436858102
 20
-151.288665215
 10
438.0348524399
 20
-156.5615504846
 10
435.74802766
 20
-161.8064553112
 10
433.2892700799
 20
-167.0094607507
 10
430.6650966562
 20
-172.156784785
 10
427.8824774238
 20
-177.2347671129
 10
424.9487828129
 20
-182.229942149
 10
421.8717941855
 20
-187.1290633599
 10
418.659672225
 20
-191.9191458471
 10
415.3209358632
 20
-196.5874785121
 10
411.8644359383
 20
-201.1216879334
 10
408.2993393899
 20
-205.5097535737
 10
404.6351029171
 20
-209.740022987
 10
400.8814387342
 20
-213.8012985082
 10
397.0483066685
 20
-217.6827931451
 10
393.1458667446
 20
-221.374224872
 10
389.184467331
 20
-224.8657991373
 10
385.1746161636
 20
-228.1482620937
 10
381.1269461023
 20
-231.2129021155
 10
377.0521901054
 20
-234.0516007475
 10
372.9611534064
 20
-236.6568183486
 10
368.8646855263
 20
-239.0216589187
 10
364.7736488274
 20
-241.1398517495
 10
360.6988928305
 20
-243.0057662511
 10
356.6512227692
 20
-244.6144666073
 10
352.6413716018
 20
-245.9616792633
 10
348.6799721881
 20
-247.0438394064
 10
344.7775322642
 20
-247.8580689099
 10
340.9444001985
 20
-248.4022143536
 10
337.1907360157
 20
-248.6748272486
 10
333.5264995429
 20
-248.6751952151
 10
329.9614029945
 20
-248.4033024344
 10
326.5049030696
 20
-247.85988288
 10
323.1661667078
 20
-247.0463731661
 10
319.9540447473
 20
-245.964927754
 10
316.8770561199
 20
-244.6184219927
 10
313.943361509
 20
-243.0104186564
 10
311.1607422766
 20
-241.1451801091
 10
308.5365688529
 20
-239.0276622185
 10
306.0778112728
 20
-236.663477855
 10
303.7909864929
 20
-234.0588847187
 10
301.6821531225
 20
-231.2208066321
 10
299.756906156
 20
-228.1567574938
 10
298.0203558986
 20
-224.8748686523
 10
296.4771016251
 20
-221.3838402349
 10
295.1312368484
 20
-217.6929320216
 10
293.9863335136
 20
-213.8119315052
 10
293.045426194
 20
-209.7511265124
 10
292.311006822
 20
-205.5212915151
 10
291.7850299577
 20
-201.1336366804
 10
291.4688811786
 20
-196.5998036843
 10
291.3634086903
 20
-191.9318098214
  0
LWPOLYLINE
  5
E3
330
1F
100
AcDbEntity
  8
0
  6
Continuous
 62
     7
370
    25
100
AcDbPolyline
 90
      115
 70
   128
 43
0.0
 10
300.8386366332
 20
-186.4618771607
 10
300.9450416206
 20
-181.9427938281
 10
301.2639404815
 20
-177.3145781539
 10
301.79435857
 20
-172.5912894844
 10
302.5346890375
 20
-167.7872684782
 10
303.482682296
 20
-162.9171082071
 10
304.6354565547
 20
-157.9956009247
 10
305.9895136252
 20
-153.0376893987
 10
307.5407389213
 20
-148.0584304082
 10
309.2844278012
 20
-143.0729445559
 10
311.2152802986
 20
-138.0963767234
 10
313.3274274649
 20
-133.1438413205
 10
315.614462979
 20
-128.2303766601
 10
318.0694378795
 20
-123.370905414
 10
320.6848974423
 20
-118.580176821
 10
323.4528969866
 20
-113.8727545208
 10
326.3650334845
 20
-109.2629313854
 10
329.4124587319
 20
-104.764697581
 10
332.5859188614
 20
-100.391723841
 10
335.8757780498
 20
-96.1572869433
 10
339.2720448598
 20
-92.0742484198
 10
342.764401216
 20
-88.1550074102
 10
346.3422445519
 20
-84.4114702475
 10
349.9947088831
 20
-80.8549957069
 10
353.7107003688
 20
-77.4963988111
 10
357.4789341904
 20
-74.3458626202
 10
361.2879674783
 20
-71.4129739767
 10
365.1262309228
 20
-68.7066261689
 10
368.98206878
 20
-66.2350384217
 10
372.8437701528
 20
-64.0057256715
 10
376.69960801
 20
-62.0254577891
 10
380.5378714545
 20
-60.3002409524
 10
384.3469047424
 20
-58.8353133718
 10
388.115138564
 20
-57.6351393999
 10
391.8311300497
 20
-56.7033438499
 10
395.4835943809
 20
-56.042772836
 10
399.0614377168
 20
-55.6554200115
 10
402.553794073
 20
-55.5424721997
 10
405.950060883
 20
-55.7042645305
 10
409.2399200714
 20
-56.1403108602
 10
412.4133802009
 20
-56.8492855251
 10
415.4608054483
 20
-57.8290370319
 10
418.3729419462
 20
-59.076578935
 10
421.1409414905
 20
-60.5881369872
 10
423.7564010533
 20
-62.3591202461
 10
426.2113759537
 20
-64.3841378052
 10
428.4984114679
 20
-66.6570474667
 10
430.6105586342
 20
-69.1709496592
 10
432.5414111316
 20
-71.9182026505
 10
434.2851000115
 20
-74.8904681747
 10
435.8363253076
 20
-78.0787205609
 10
437.1903823781
 20
-81.4732710704
 10
438.3431566368
 20
-85.0638135241
 10
439.2911498953
 20
-88.8394440767
 10
440.0314803628
 20
-92.7886977194
 10
440.5618984513
 20
-96.8995786993
 10
440.8807973122
 20
-101.1596015859
 10
440.9872022996
 20
-105.555832335
 10
440.8807973122
 20
-110.0749156676
 10
440.5618984513
 20
-114.7031313419
 10
440.0314803628
 20
-119.4264200113
 10
439.2911498953
 20
-124.2304410175
 10
438.3431566368
 20
-129.1006012887
 10
437.1903823781
 20
-134.0221085711
 10
435.8363253076
 20
-138.9800200971
 10
434.2851000115
 20
-143.9592790876
 10
432.5414111316
 20
-148.9447649399
 10
430.6105586342
 20
-153.9213327724
 10
428.4984114679
 20
-158.8738681753
 10
426.2113759537
 20
-163.7873328357
 10
423.7564010533
 20
-168.6468040817
 10
421.1409414905
 20
-173.4375326748
 10
418.3729419462
 20
-178.144954975
 10
415.4608054483
 20
-182.7547781103
 10
412.4133802009
 20
-187.2530119148
 10
409.2399200714
 20
-191.6259856548
 10
405.950060883
 20
-195.8604225524
 10
402.553794073
 20
-199.9434610759
 10
399.0614377168
 20
-203.8627020856
 10
395.4835943809
 20
-207.6062392482
 10
391.8311300497
 20
-211.1627137888
 10
388.115138564
 20
-214.5213106846
 10
384.3469047424
 20
-217.6718468755
 10
380.5378714545
 20
-220.6047355191
 10
376.69960801
 20
-223.3110833269
 10
372.8437701528
 20
-225.782671074
 10
368.98206878
 20
-228.0119838243
 10
365.1262309228
 20
-229.9922517066
 10
361.2879674783
 20
-231.7174685433
 10
357.4789341904
 20
-233.1823961239
 10
353.7107003688
 20
-234.3825700959
 10
349.9947088831
 20
-235.3143656459
 10
346.3422445519
 20
-235.9749366598
 10
342.764401216
 20
-236.3622894843
 10
339.2720448598
 20
-236.475237296
 10
335.8757780498
 20
-236.3134449653
 10
332.5859188614
 20
-235.8773986355
 10
329.4124587319
 20
-235.1684239706
 10
326.3650334845
 20
-234.1886724638
 10
323.4528969866
 20
-232.9411305608
 10
320.6848974423
 20
-231.4295725085
 10
318.0694378795
 20
-229.6585892497
 10
315.614462979
 20
-227.6335716906
 10
313.3274274649
 20
-225.3606620291
 10
311.2152802986
 20
-222.8467598365
 10
309.2844278012
 20
-220.0995068453
 10
307.5407389213
 20
-217.1272413211
 10
305.9895136252
 20
-213.9389889349
 10
304.6354565547
 20
-210.5444384253
 10
303.482682296
 20
-206.9538959717
 10
302.5346890375
 20
-203.178265419
 10
301.79435857
 20
-199.2290117764
 10
301.2639404815
 20
-195.1181307965
 10
300.9450416206
 20
-190.8581079098
 10
300.8386366332
 20
-186.4618771607
  0
ARC
  5
E4
330
1F
100
AcDbEntity
  8
0
  6
Continuous
 62
     7
370
    25
100
AcDbCircle
 10
492.6871548127
 20
-130.0870578085
 30
0.0
 40
37.82877945654615
100
AcDbArc
 50
49.5903351479
 51
59.9864826464
  0
ARC
  5
E5
330
1F
100
AcDbEntity
  8
0
  6
Continuous
 62
     7
370
    25
100
AcDbCircle
 10
418.0532266618
 20
-259.355355796
 30
0.0
 40
37.90463591679885
100
AcDbArc
 50
240.0305556942
 51
249.9213775604
  0
ARC
  5
E6
330
1F
100
AcDbEntity
  8
0
  6
Continuous
 62
     7
370
    25
100
AcDbCircle
 10
468.8537609943
 20
-145.1541800841
 30
0.0
 40
66.36177885937997
100
AcDbArc
 50
4.0123260262
 51
29.4908638415
  0
ARC
  5
E7
330
1F
100
AcDbEntity
  8
0
  6
Continuous
 62
     7
370
    25
100
AcDbCircle
 10
419.1063498607
 20
-231.9393839094
 30
0.0
 40
65.71088928836603
100
AcDbArc
 50
271.919771733
 51
294.1054187698
  0
ARC
  5
E8
330
1F
100
AcDbEntity
  8
0
  6
Continuous
 62
     7
370
    25
100
AcDbCircle
 10
526.7656675652
 20
-207.9586937674
 30
0.0
 40
33.34386086752829
100
AcDbArc
 50
9.8306216032
 51
19.7941798875
  0
ARC
  5
E9
330
1F
100
AcDbEntity
  8
0
  6
Continuous
 62
     7
370
    25
100
AcDbCircle
 10
502.4745146128
 20
-249.9673355755
 30
0.0
 40
33.37450798859558
100
AcDbArc
 50
280.2447571575
 51
289.0808092433
  0
LWPOLYLINE
  5
EA
330
1F
100
AcDbEntity
  8
0
  6
Continuous
 62
     7
370
    25
100
AcDbPolyline
 90
       45
 70
   128
 43
0.0
 10
607.0071762851
 20
-218.7963568217
 10
607.262333306
 20
-218.9464170505
 10
609.1986359178
 20
-220.2813556018
 10
610.9727890666
 20
-221.8683389262
 10
612.5750963431
 20
-223.6986983578
 10
613.9968122764
 20
-225.7624345099
 10
615.2301713094
 20
-228.0482765938
 10
616.2684352149
 20
-230.5437417392
 10
617.1059326075
 20
-233.2352019191
 10
617.7380931883
 20
-236.1079531547
 10
618.1614609157
 20
-239.1463086732
 10
618.3737229816
 20
-242.3336736266
 10
618.3737229816
 20
-245.6526382492
 10
618.1614609157
 20
-249.0850757673
 10
617.7380931883
 20
-252.6122412593
 10
617.1059326075
 20
-256.2148695656
 10
616.2684352149
 20
-259.8732836527
 10
615.2301713094
 20
-263.5675027873
 10
613.9968122764
 20
-267.2773508999
 10
612.5750963431
 20
-270.9825653286
 10
610.9727890666
 20
-274.6629093637
 10
609.1986359178
 20
-278.2982863124
 10
607.262333306
 20
-281.868832273
 10
605.1744521878
 20
-285.3550575735
 10
602.9463985539
 20
-288.7379121677
 10
600.5903383557
 20
-291.9989232723
 10
598.119143504
 20
-295.1202812937
 10
595.5463075759
 20
-298.0849371595
 10
592.8858839112
 20
-300.8766988916
 10
590.1524032944
 20
-303.4803217132
 10
587.3607936123
 20
-305.8815818061
 10
584.5263028047
 20
-308.0673664187
 10
581.6644112772
 20
-310.0257365953
 10
578.7907499129
 20
-311.7459958008
 10
575.9210134739
 20
-313.2187520802
 10
573.0708756488
 20
-314.4359579748
 10
570.2559034418
 20
-315.3909660282
 10
567.491469916
 20
-316.0785609073
 10
564.7926741799
 20
-316.4949873424
 10
562.1742564351
 20
-316.6379717919
 10
559.6505176342
 20
-316.5067323207
 10
557.2352411138
 20
-316.1019873388
 10
554.9416175204
 20
-315.4259441868
 10
552.7821763218
 20
-314.4822960876
 10
552.0116450031
 20
-314.0617349561
  0
LWPOLYLINE
  5
EB
330
1F
100
AcDbEntity
  8
0
  6
Continuous
 62
     1
370
    25
100
AcDbPolyline
 90
       59
 70
   128
 43
0.0
 10
517.2095987075
 20
-101.2831292466
 10
517.7401959201
 20
-101.742529039
 10
520.1989535002
 20
-104.1067134025
 10
522.4857782801
 20
-106.7113065388
 10
524.5946116504
 20
-109.5493846254
 10
526.519858617
 20
-112.6134337638
 10
528.2564088744
 20
-115.8953226052
 10
529.7996631478
 20
-119.3863510227
 10
531.1455279246
 20
-123.0772592359
 10
532.2904312593
 20
-126.9582597523
 10
533.2313385789
 20
-131.0190647452
 10
533.9657579509
 20
-135.2488997424
 10
534.4917348153
 20
-139.6365545771
 10
534.8078835943
 20
-144.1703875732
 10
534.9133560827
 20
-148.8383814362
 10
534.8078835943
 20
-153.6281512421
 10
534.4917348153
 20
-158.5270018489
 10
533.9657579509
 20
-163.5219366449
 10
533.2313385789
 20
-168.5997142001
 10
532.2904312593
 20
-173.7468676606
 10
531.1455279246
 20
-178.9497454303
 10
529.7996631478
 20
-184.1945560391
 10
528.2564088744
 20
-189.4673879139
 10
526.519858617
 20
-194.7542550054
 10
524.5946116504
 20
-200.0411469768
 10
522.4857782801
 20
-205.3140322463
 10
520.1989535002
 20
-210.558937073
 10
517.7401959201
 20
-215.7619425124
 10
515.1160224963
 20
-220.9092665468
 10
512.3334032639
 20
-225.9872488747
 10
509.3997086531
 20
-230.9824239108
 10
506.3227200256
 20
-235.8815451217
 10
503.1105980651
 20
-240.6716276088
 10
499.7718617033
 20
-245.3399602739
 10
496.3153617785
 20
-249.8741696952
 10
492.7502652301
 20
-254.2622353355
 10
489.0860287572
 20
-258.4925047488
 10
485.3323645744
 20
-262.55378027
 10
481.4992325087
 20
-266.4352749069
 10
477.5967925848
 20
-270.1267066338
 10
473.6353931711
 20
-273.6182808991
 10
469.6255420038
 20
-276.9007438555
 10
465.5778719425
 20
-279.9653838772
 10
461.5031159455
 20
-282.8040825092
 10
457.4120792466
 20
-285.4093001104
 10
453.3156113665
 20
-287.7741406805
 10
449.2245746676
 20
-289.8923335113
 10
445.1498186707
 20
-291.7582480129
 10
441.1021486093
 20
-293.3669483691
 10
437.092297442
 20
-294.7141610251
 10
433.1308980283
 20
-295.7963211681
 10
429.2284581044
 20
-296.6105506717
 10
425.3953260387
 20
-297.1546961154
 10
421.6416618559
 20
-297.4273090104
 10
417.977425383
 20
-297.4276769769
 10
414.4123288346
 20
-297.1557841962
 10
410.9558289098
 20
-296.6123646418
 10
407.617092548
 20
-295.7988549278
 10
405.0402131566
 20
-294.9562392611
  0
ARC
  5
EC
330
1F
100
AcDbEntity
  8
0
  6
Continuous
 62
     1
370
    25
100
AcDbCircle
 10
544.7009813659
 20
-246.3345650153
 30
0.0
 40
161.1655953018674
100
AcDbArc
 50
130.8658575248
 51
169.1395200732
  0
LWPOLYLINE
  5
ED
330
1F
100
AcDbEntity
  8
0
  6
Continuous
 62
     1
370
    25
100
AcDbPolyline
 90
       36
 70
   128
 43
0.0
 10
535.052888493
 20
-140.510774891
 10
535.3405249291
 20
-144.7341302666
 10
535.445723463
 20
-149.3897186727
 10
535.3405249291
 20
-154.1667667207
 10
535.025219087
 20
-159.0526005632
 10
534.500638337
 20
-164.0342654128
 10
533.7681682567
 20
-169.0985540601
 10
532.8297634063
 20
-174.2320300699
 10
531.687899913
 20
-179.4210889932
 10
530.34561235
 20
-184.6519652156
 10
528.8064568576
 20
-189.9107867067
 10
527.0745216801
 20
-195.1836069607
 10
525.1543902873
 20
-200.4564521416
 10
523.0511624478
 20
-205.7153271688
 10
520.7704068141
 20
-210.9463008848
 10
518.3181819955
 20
-216.1354847638
 10
515.7009838752
 20
-221.269133288
 10
512.9257561463
 20
-226.333619614
 10
509.9998534341
 20
-231.3155298666
 10
506.9310412952
 20
-236.20163272
 10
503.7274540716
 20
-240.9789889011
 10
500.3975896214
 20
-245.6349177279
 10
496.9502724412
 20
-250.1570853205
 10
493.3946483969
 20
-254.5334833071
 10
489.7401452119
 20
-258.7525185549
 10
485.9964540271
 20
-262.8029994807
 10
482.1735030595
 20
-266.6741877589
 10
478.2814312604
 20
-270.3558135292
 10
474.3305580221
 20
-273.838111135
 10
470.3313594707
 20
-277.1118510606
 10
466.2944434412
 20
-280.1683482944
 10
462.2305125989
 20
-282.9995079526
 10
458.1503451771
 20
-285.5978059811
 10
454.0647604035
 20
-287.9563638675
 10
449.9845929817
 20
-290.0689268707
 10
445.9437803444
 20
-291.9199915764
  0
LWPOLYLINE
  5
EE
330
1F
100
AcDbEntity
  8
0
  6
Continuous
 62
     1
370
    25
100
AcDbPolyline
 90
       29
 70
   128
 43
0.0
 10
559.6199335102
 20
-202.2656922066
 10
559.6212611359
 20
-202.2731190118
 10
560.0469285008
 20
-205.3279862966
 10
560.2603469708
 20
-208.5326707107
 10
560.2603469708
 20
-211.869671612
 10
560.0469285008
 20
-215.3207637466
 10
559.6212611359
 20
-218.8670961098
 10
558.985665587
 20
-222.4893014504
 10
558.1436163347
 20
-226.1675966523
 10
557.0997100199
 20
-229.8818914777
 10
555.8596522721
 20
-233.611898833
 10
554.4302076606
 20
-237.3372495939
 10
552.8191917915
 20
-241.0375945068
 10
551.0354001852
 20
-244.6927228142
 10
549.0885740322
 20
-248.2826763213
 10
546.9893475092
 20
-251.7878436878
 10
544.7491845589
 20
-255.1890836176
 10
542.3803222555
 20
-258.4678153481
 10
539.8956970471
 20
-261.6061342341
 10
537.3088802191
 20
-264.5869037571
 10
534.6339988682
 20
-267.3938376487
 10
531.8856634629
 20
-270.0116055873
 10
529.0788835496
 20
-272.425915321
 10
526.2289893859
 20
-274.6235791999
 10
523.3515456713
 20
-276.5925913558
 10
520.4622679942
 20
-278.3222002705
 10
517.5769368097
 20
-279.8029584357
 10
514.7113106762
 20
-281.026778524
 10
513.3846872529
 20
-281.5081966361
  0
ARC
  5
EF
330
1F
100
AcDbEntity
  8
0
  6
Continuous
 62
     1
370
    25
100
AcDbCircle
 10
547.182836686
 20
-247.7673099019
 30
0.0
 40
161.4239584802507
100
AcDbArc
 50
132.3269103517
 51
167.6784668879
  0
LWPOLYLINE
  5
F0
330
1F
100
AcDbEntity
  8
0
  6
Continuous
 62
     1
370
    25
100
AcDbPolyline
 90
       35
 70
   128
 43
0.0
 10
557.0139411832
 20
-193.5588680882
 10
557.6493049245
 20
-194.8075499785
 10
558.68756883
 20
-197.303015124
 10
559.5250662226
 20
-199.9944753039
 10
560.1572268034
 20
-202.8672265394
 10
560.5805945308
 20
-205.9055820579
 10
560.7928565966
 20
-209.0929470113
 10
560.7928565966
 20
-212.4119116339
 10
560.5805945308
 20
-215.844349152
 10
560.1572268034
 20
-219.3715146441
 10
559.5250662226
 20
-222.9741429503
 10
558.68756883
 20
-226.6325570375
 10
557.6493049245
 20
-230.326776172
 10
556.4159458915
 20
-234.0366242846
 10
554.9942299582
 20
-237.7418387134
 10
553.3919226817
 20
-241.4221827484
 10
551.6177695329
 20
-245.0575596972
 10
549.6814669211
 20
-248.6281056578
 10
547.5935858029
 20
-252.1143309582
 10
545.365532169
 20
-255.4971855525
 10
543.0094719708
 20
-258.7581966571
 10
540.5382771191
 20
-261.8795546785
 10
537.965441191
 20
-264.8442105443
 10
535.3050175263
 20
-267.6359722763
 10
532.5715369095
 20
-270.2395950979
 10
529.7799272274
 20
-272.6408551909
 10
526.9454364198
 20
-274.8266398034
 10
524.0835448923
 20
-276.78500998
 10
521.209883528
 20
-278.5052691856
 10
518.340147089
 20
-279.9780254649
 10
515.4900092639
 20
-281.1952313596
 10
512.6750370569
 20
-282.1502394129
 10
509.9106035311
 20
-282.8378342921
 10
507.211807795
 20
-283.2542607272
 10
505.1558423777
 20
-283.3894636646
  0
ENDSEC
  0
SECTION
  2
OBJECTS
  0
DICTIONARY
  5
C
330
0
100
AcDbDictionary
281
     1
  3
ACAD_GROUP
350
D
  3
ACAD_LAYOUT
350
1A
  3
ACAD_MLINESTYLE
350
17
  3
ACAD_PLOTSETTINGS
350
19
  3
ACAD_PLOTSTYLENAME
350
E
  3
ACAD_SCALELIST
350
47
  0
DICTIONARY
  5
D
102
{ACAD_REACTORS
330
C
102
}
330
C
100
AcDbDictionary
281
     1
  0
DICTIONARY
  5
1A
102
{ACAD_REACTORS
330
C
102
}
330
C
100
AcDbDictionary
281
     1
  3
Layout1
350
1E
  3
Layout2
350
26
  3
Model
350
22
  0
DICTIONARY
  5
17
102
{ACAD_REACTORS
330
C
102
}
330
C
100
AcDbDictionary
281
     1
  3
Standard
350
18
  0
DICTIONARY
  5
19
102
{ACAD_REACTORS
330
C
102
}
330
C
100
AcDbDictionary
281
     1
  0
ACDBDICTIONARYWDFLT
  5
E
102
{ACAD_REACTORS
330
C
102
}
330
C
100
AcDbDictionary
281
     1
  3
Normal
350
F
100
AcDbDictionaryWithDefault
340
F
  0
DICTIONARY
  5
47
102
{ACAD_REACTORS
330
C
102
}
330
C
100
AcDbDictionary
281
     1
  3
A0
350
48
  3
A1
350
49
  3
A2
350
4A
  3
A3
350
4B
  3
A4
350
4C
  3
A5
350
4D
  3
A6
350
4E
  3
A7
350
4F
  3
A8
350
50
  3
A9
350
51
  3
B0
350
52
  3
B1
350
53
  3
B2
350
54
  3
B3
350
55
  3
B4
350
56
  3
B5
350
57
  3
B6
350
58
  3
B7
350
59
  3
B8
350
5A
  3
B9
350
5B
  3
C0
350
5C
  3
C1
350
5D
  3
C2
350
5E
  3
C3
350
5F
  3
C4
350
60
  3
C5
350
61
  3
C6
350
62
  3
C7
350
63
  3
C8
350
64
  3
C9
350
65
  3
D0
350
66
  3
D1
350
67
  3
D2
350
68
  0
LAYOUT
  5
1E
102
{ACAD_REACTORS
330
1A
102
}
330
1A
100
AcDbPlotSettings
  1

  2
none_device
  4

  6

 40
0.0
 41
0.0
 42
0.0
 43
0.0
 44
0.0
 45
0.0
 46
0.0
 47
0.0
 48
0.0
 49
0.0
140
0.0
141
0.0
142
1.0
143
1.0
 70
   688
 72
     1
 73
     0
 74
     5
  7

 75
    16
147
1.0
148
0.0
149
0.0
100
AcDbLayout
  1
Layout1
 70
     1
 71
     1
 10
0.0
 20
0.0
 11
420.0
 21
297.0
 12
0.0
 22
0.0
 32
0.0
 14
1.0000000000E+20
 24
1.0000000000E+20
 34
1.0000000000E+20
 15
-1.0000000000E+20
 25
-1.0000000000E+20
 35
-1.0000000000E+20
146
0.0
 13
0.0
 23
0.0
 33
0.0
 16
1.0
 26
0.0
 36
0.0
 17
0.0
 27
1.0
 37
0.0
 76
     0
330
1B
  0
LAYOUT
  5
26
102
{ACAD_REACTORS
330
1A
102
}
330
1A
100
AcDbPlotSettings
  1

  2
none_device
  4

  6

 40
0.0
 41
0.0
 42
0.0
 43
0.0
 44
0.0
 45
0.0
 46
0.0
 47
0.0
 48
0.0
 49
0.0
140
0.0
141
0.0
142
1.0
143
1.0
 70
   688
 72
     1
 73
     0
 74
     5
  7

 75
    16
147
1.0
148
0.0
149
0.0
100
AcDbLayout
  1
Layout2
 70
     1
 71
     2
 10
0.0
 20
0.0
 11
0.0
 21
0.0
 12
0.0
 22
0.0
 32
0.0
 14
0.0
 24
0.0
 34
0.0
 15
0.0
 25
0.0
 35
0.0
146
0.0
 13
0.0
 23
0.0
 33
0.0
 16
1.0
 26
0.0
 36
0.0
 17
0.0
 27
1.0
 37
0.0
 76
     0
330
23
  0
LAYOUT
  5
22
102
{ACAD_REACTORS
330
1A
102
}
330
1A
100
AcDbPlotSettings
  1

  2
none_device
  4
Letter_(8.50_x_11.00_Inches)
  6

 40
6.35
 41
6.35
 42
6.35000508
 43
6.35000508
 44
215.9
 45
279.4
 46
0.0
 47
0.0
 48
0.0
 49
0.0
140
0.0
141
0.0
142
1.0
143
1.0
 70
  1712
 72
     1
 73
     0
 74
     0
  7

 75
     0
147
1.0
148
0.0
149
0.0
100
AcDbLayout
  1
Model
 70
     1
 71
     0
 10
0.0
 20
0.0
 11
279.4
 21
215.9
 12
0.0
 22
0.0
 32
0.0
 14
0.0
 24
0.0
 34
0.0
 15
279.4
 25
215.9
 35
0.0
146
0.0
 13
0.0
 23
0.0
 33
0.0
 16
1.0
 26
0.0
 36
0.0
 17
0.0
 27
1.0
 37
0.0
 76
     0
330
1F
331
29
  0
MLINESTYLE
  5
18
102
{ACAD_REACTORS
330
17
102
}
330
17
100
AcDbMlineStyle
  2
Standard
 70
     0
  3

 62
   256
 51
90.0
 52
90.0
 71
     2
 49
0.5
 62
   256
  6
BYLAYER
 49
-0.5
 62
   256
  6
BYLAYER
  0
ACDBPLACEHOLDER
  5
F
102
{ACAD_REACTORS
330
E
102
}
330
E
  0
SCALE
  5
48
102
{ACAD_REACTORS
330
47
102
}
330
47
100
AcDbScale
 70
     0
300
1:1
140
1.0
141
1.0
290
     1
  0
SCALE
  5
49
102
{ACAD_REACTORS
330
47
102
}
330
47
100
AcDbScale
 70
     0
300
1:2
140
1.0
141
2.0
290
     0
  0
SCALE
  5
4A
102
{ACAD_REACTORS
330
47
102
}
330
47
100
AcDbScale
 70
     0
300
1:4
140
1.0
141
4.0
290
     0
  0
SCALE
  5
4B
102
{ACAD_REACTORS
330
47
102
}
330
47
100
AcDbScale
 70
     0
300
1:5
140
1.0
141
5.0
290
     0
  0
SCALE
  5
4C
102
{ACAD_REACTORS
330
47
102
}
330
47
100
AcDbScale
 70
     0
300
1:8
140
1.0
141
8.0
290
     0
  0
SCALE
  5
4D
102
{ACAD_REACTORS
330
47
102
}
330
47
100
AcDbScale
 70
     0
300
1:10
140
1.0
141
10.0
290
     0
  0
SCALE
  5
4E
102
{ACAD_REACTORS
330
47
102
}
330
47
100
AcDbScale
 70
     0
300
1:16
140
1.0
141
16.0
290
     0
  0
SCALE
  5
4F
102
{ACAD_REACTORS
330
47
102
}
330
47
100
AcDbScale
 70
     0
300
1:20
140
1.0
141
20.0
290
     0
  0
SCALE
  5
50
102
{ACAD_REACTORS
330
47
102
}
330
47
100
AcDbScale
 70
     0
300
1:30
140
1.0
141
30.0
290
     0
  0
SCALE
  5
51
102
{ACAD_REACTORS
330
47
102
}
330
47
100
AcDbScale
 70
     0
300
1:40
140
1.0
141
40.0
290
     0
  0
SCALE
  5
52
102
{ACAD_REACTORS
330
47
102
}
330
47
100
AcDbScale
 70
     0
300
1:50
140
1.0
141
50.0
290
     0
  0
SCALE
  5
53
102
{ACAD_REACTORS
330
47
102
}
330
47
100
AcDbScale
 70
     0
300
1:100
140
1.0
141
100.0
290
     0
  0
SCALE
  5
54
102
{ACAD_REACTORS
330
47
102
}
330
47
100
AcDbScale
 70
     0
300
2:1
140
2.0
141
1.0
290
     0
  0
SCALE
  5
55
102
{ACAD_REACTORS
330
47
102
}
330
47
100
AcDbScale
 70
     0
300
4:1
140
4.0
141
1.0
290
     0
  0
SCALE
  5
56
102
{ACAD_REACTORS
330
47
102
}
330
47
100
AcDbScale
 70
     0
300
8:1
140
8.0
141
1.0
290
     0
  0
SCALE
  5
57
102
{ACAD_REACTORS
330
47
102
}
330
47
100
AcDbScale
 70
     0
300
10:1
140
10.0
141
1.0
290
     0
  0
SCALE
  5
58
102
{ACAD_REACTORS
330
47
102
}
330
47
100
AcDbScale
 70
     0
300
100:1
140
100.0
141
1.0
290
     0
  0
SCALE
  5
59
102
{ACAD_REACTORS
330
47
102
}
330
47
100
AcDbScale
 70
     0
300
1/128" = 1'-0"
140
0.0078125
141
12.0
290
     0
  0
SCALE
  5
5A
102
{ACAD_REACTORS
330
47
102
}
330
47
100
AcDbScale
 70
     0
300
1/64" = 1'-0"
140
0.015625
141
12.0
290
     0
  0
SCALE
  5
5B
102
{ACAD_REACTORS
330
47
102
}
330
47
100
AcDbScale
 70
     0
300
1/32" = 1'-0"
140
0.03125
141
12.0
290
     0
  0
SCALE
  5
5C
102
{ACAD_REACTORS
330
47
102
}
330
47
100
AcDbScale
 70
     0
300
1/16" = 1'-0"
140
0.0625
141
12.0
290
     0
  0
SCALE
  5
5D
102
{ACAD_REACTORS
330
47
102
}
330
47
100
AcDbScale
 70
     0
300
3/32" = 1'-0"
140
0.09375
141
12.0
290
     0
  0
SCALE
  5
5E
102
{ACAD_REACTORS
330
47
102
}
330
47
100
AcDbScale
 70
     0
300
1/8" = 1'-0"
140
0.125
141
12.0
290
     0
  0
SCALE
  5
5F
102
{ACAD_REACTORS
330
47
102
}
330
47
100
AcDbScale
 70
     0
300
3/16" = 1'-0"
140
0.1875
141
12.0
290
     0
  0
SCALE
  5
60
102
{ACAD_REACTORS
330
47
102
}
330
47
100
AcDbScale
 70
     0
300
1/4" = 1'-0"
140
0.25
141
12.0
290
     0
  0
SCALE
  5
61
102
{ACAD_REACTORS
330
47
102
}
330
47
100
AcDbScale
 70
     0
300
3/8" = 1'-0"
140
0.375
141
12.0
290
     0
  0
SCALE
  5
62
102
{ACAD_REACTORS
330
47
102
}
330
47
100
AcDbScale
 70
     0
300
1/2" = 1'-0"
140
0.5
141
12.0
290
     0
  0
SCALE
  5
63
102
{ACAD_REACTORS
330
47
102
}
330
47
100
AcDbScale
 70
     0
300
3/4" = 1'-0"
140
0.75
141
12.0
290
     0
  0
SCALE
  5
64
102
{ACAD_REACTORS
330
47
102
}
330
47
100
AcDbScale
 70
     0
300
1" = 1'-0"
140
1.0
141
12.0
290
     0
  0
SCALE
  5
65
102
{ACAD_REACTORS
330
47
102
}
330
47
100
AcDbScale
 70
     0
300
1-1/2" = 1'-0"
140
1.5
141
12.0
290
     0
  0
SCALE
  5
66
102
{ACAD_REACTORS
330
47
102
}
330
47
100
AcDbScale
 70
     0
300
3" = 1'-0"
140
3.0
141
12.0
290
     0
  0
SCALE
  5
67
102
{ACAD_REACTORS
330
47
102
}
330
47
100
AcDbScale
 70
     0
300
6" = 1'-0"
140
6.0
141
12.0
290
     0
  0
SCALE
  5
68
102
{ACAD_REACTORS
330
47
102
}
330
47
100
AcDbScale
 70
     0
300
1'-0" = 1'-0"
140
12.0
141
12.0
290
     0
  0
ENDSEC
  0
EOF
